::ОФИЦИАЛЬНЫЙ ФОРУМ ГРУППЫ АГАТА КРИСТИ::
 

Вернуться   ::ОФИЦИАЛЬНЫЙ ФОРУМ ГРУППЫ АГАТА КРИСТИ:: АРХИВЫ ФОРУМА ХРАНИЛИЩЕ АРХИВ НАШЕГО ТВОРЧЕСТВА
Последние 10 сообщений Регистрация Список пользователей Поиск Все разделы прочитаны


Ответ
 
Опции темы Оценить тему
Старый 26.06.2006, 11:47   #1  Вверх   
шнуРОК поза форумом шнуРОК Топикстартер
Зеленый Глюк Начать приватный чат
шнуРОК Ни чем не отличился на форуме; 0%шнуРОК Ни чем не отличился на форуме, 0%шнуРОК Ни чем не отличился на форуме, 0%
Регистрация: 22.06.2006
Сообщений: 1
Народ, есть у кого-ниб подборка В итересах революции, интересует вступление!
Зарегистрируйтесь, чтобы не видеть рекламу
Реклама на форуме
Старый 26.06.2006, 11:56   #2  Вверх   
Клявас®
Гость Начать приватный чат
Сообщений: n/a
Есть.
Старый 26.06.2006, 15:10   #3  Вверх   
Stereoтип поза форумом Stereoтип
Звездочет
 
Аватар для Stereoтип
Stereoтип отключил(а) отображение уровня репутации
Регистрация: 31.05.2005
Сообщений: 522
3|-0-3-7-5-0-----2-5-7-2---0-3-7---6-9-7---------|
4|-------------2-3----------3--------7--------7------|
5|------------------------------------------------8-5-|
Старый 30.06.2006, 15:19   #4  Вверх   
Dark Lik поза форумом Dark Lik
Моряк
 
Аватар для Dark Lik
Dark Lik отключил(а) отображение уровня репутации
Регистрация: 11.04.2006
Сообщений: 195
а какие-нибудь соло есть? в виде табов
Старый 30.06.2006, 15:26   #5  Вверх   
Stereoтип поза форумом Stereoтип
Звездочет
 
Аватар для Stereoтип
Stereoтип отключил(а) отображение уровня репутации
Регистрация: 31.05.2005
Сообщений: 522
Какие нужны?
Старый 30.06.2006, 16:02   #6  Вверх   
Шива поза форумом Шива
Вервольф
 
Аватар для Шива
Шива отключил(а) отображение уровня репутации
Регистрация: 09.12.2005
Сообщений: 1,667
к Грязи вступление
Старый 01.07.2006, 18:27   #7  Вверх   
Stereoтип поза форумом Stereoтип
Звездочет
 
Аватар для Stereoтип
Stereoтип отключил(а) отображение уровня репутации
Регистрация: 31.05.2005
Сообщений: 522
Цитата:
Originally posted by Шива@Friday, 30 June 2006, 16:02
к Грязи вступление
1|-----------0-----3--|
2|-----3---------3----|
3|---2-----2---2------|
4|-3-----2------------|

Как там с Трибьютом дела?
Старый 03.07.2006, 11:44   #8  Вверх   
Шива поза форумом Шива
Вервольф
 
Аватар для Шива
Шива отключил(а) отображение уровня репутации
Регистрация: 09.12.2005
Сообщений: 1,667
да что-то запуталась я с настройками и записью звука. уже кто только разобраться не пытался...
не могу сделать так, чтобы в наушники шла минусовка, а одновременно в микрофон записывался чистый голос. почему-то идет сразу накладка обеих дорожек с неконтролируемым соотношением громкостей.
а так.... что можно поделать: экзамены вступительные, сложно сесть и разобраться как следует.
Старый 03.07.2006, 13:31   #9  Вверх   
Stereoтип поза форумом Stereoтип
Звездочет
 
Аватар для Stereoтип
Stereoтип отключил(а) отображение уровня репутации
Регистрация: 31.05.2005
Сообщений: 522
Поторопись, а то не успеешь.
Старый 14.07.2006, 21:03   #10  Вверх   
Dark Lik поза форумом Dark Lik
Моряк
 
Аватар для Dark Lik
Dark Lik отключил(а) отображение уровня репутации
Регистрация: 11.04.2006
Сообщений: 195
Цитата:
Originally posted by Stereoтип@Friday, 30 June 2006, 15:26
Какие нужны?
все, какие есть... :)

очень хочется КУМЗ, но там слишком быстро... мои пальцы пока на такое не способны... хотя если играть день за днем... :)

а так - чем больше, тем лучше :)
Старый 15.07.2006, 01:27   #11  Вверх   
gliuk
Гость Начать приватный чат
Сообщений: n/a
если автор темы мне расскажет, какое отношение имеет сабж к разделу НАШЕ ТВОРЧЕСТВО - я открою. для этого ему стоит воспользоваться ПМ.
Старый 15.07.2006, 01:45   #12  Вверх   
morfey
Гость Начать приватный чат
Сообщений: n/a
тема имеет непосредственное отношение к творчеству


ибо мне например интересно посматреть кто как подабрал какиенить кусочки из песен группы Ак!
Старый 15.07.2006, 12:48   #13  Вверх   
Stereoтип поза форумом Stereoтип
Звездочет
 
Аватар для Stereoтип
Stereoтип отключил(а) отображение уровня репутации
Регистрация: 31.05.2005
Сообщений: 522
Цитата:
Originally posted by Dark Lik+Friday, 14 July 2006, 21:03--></div><table border='0' align='center' width='95%' cellpadding='3' cellspacing='1'><tr><td>QUOTE (Dark Lik @ Friday, 14 July 2006, 21:03)</td></tr><tr><td id='QUOTE'> <!--QuoteBegin-Stereoтип@Friday, 30 June 2006, 15:26
Какие нужны?
все, какие есть...

очень хочется КУМЗ, но там слишком быстро... мои пальцы пока на такое не способны... хотя если играть день за днем...

а так - чем больше, тем лучше [/b][/quote]
Дело в том, что у меня их нет. Ты напиши, а я подобрать постараюсь. Кумз бесполезно подбирать.
Старый 09.08.2006, 12:21   #14  Вверх   
Desert поза форумом Desert
Зеленый Глюк Начать приватный чат
Desert Ни чем не отличился на форуме; 0%Desert Ни чем не отличился на форуме, 0%Desert Ни чем не отличился на форуме, 0%
Регистрация: 09.08.2006
Сообщений: 2
Ребята, помогите! Мне нужна таба, после второва припева песни "Как на войне".
Очень, надо!
Заранее спасибо.
Старый 09.08.2006, 13:30   #15  Вверх   
morfey
Гость Начать приватный чат
Сообщений: n/a
Am G
e|---5-----5-----5---3-----3-----3-|
b|-----0-----0---------0-----0-----|
g|-5-----5-----5---5-----5-----5---|

C E
e|---3-----3-----3---4-------7-----|
b|-----0-----0---------------------|
g|-5-----5-----5---4-----~-7-----7-|

Am G
e|---5-----5-----5---3-----3-----3-|
b|-----0-----0---------0-----0-----|
g|-5-----5-----5---5-----5-----5---|

C E
e|---3-----3-----3---4-------7-----|
b|-----0-----0---------------------|
g|-5-----5-----5---4-----4-7-----7-|

Am G
e|---8-----7-----5-------3---------|
b|-------------0-------0---0---6---|
g|-9-----9-7-----5-----------5---5-|

C E
e|---------------0-----0-----0-----|
b|-6---5-5---1-------------3---3-1-|
g|-----5-5-0---0---0~1---1---------|

Am G
e|-----8-----7-----5-5---3---------|
b|-------0-----0-------0---------6-|
g|---5-----5-----5---------------4-|

C E
e|-------------------0-------0-----|
b|-6--5-5----1---------0---3---3---|
g|-4--5-5--0-----0-1-----1---------|
Старый 09.08.2006, 17:02   #16  Вверх   
Desert поза форумом Desert
Зеленый Глюк Начать приватный чат
Desert Ни чем не отличился на форуме; 0%Desert Ни чем не отличился на форуме, 0%Desert Ни чем не отличился на форуме, 0%
Регистрация: 09.08.2006
Сообщений: 2
Ребята, это нето походу. Счас попытаюсь выразится попонятнее.

У меня 6-струнная гитара. Мне нужна таба песни Агаты Кристи "Как на войне", но невся я большую часть знаю. Нужно узнать как играется проигрышь после второго припева.
Старый 09.08.2006, 17:07   #17  Вверх   
morfey
Гость Начать приватный чат
Сообщений: n/a
лоле, выкини гитару.
Старый 13.08.2006, 17:47   #18  Вверх   
Dark Lik поза форумом Dark Lik
Моряк
 
Аватар для Dark Lik
Dark Lik отключил(а) отображение уровня репутации
Регистрация: 11.04.2006
Сообщений: 195
а какие аккорды Вадим играет в концертной версии Как на войне во вступлении?
Старый 13.08.2006, 18:06   #19  Вверх   
morfey
Гость Начать приватный чат
Сообщений: n/a
там какието уменьшенные
но квадрат тотже
Am G C E
Старый 15.08.2006, 22:58   #20  Вверх   
Stereoтип поза форумом Stereoтип
Звездочет
 
Аватар для Stereoтип
Stereoтип отключил(а) отображение уровня репутации
Регистрация: 31.05.2005
Сообщений: 522
Если вот это соло нужно, то вот.


Am
|-----5----5-----|e
|---5----5-----5-|h
|-5----5-----5---|g
|----------------|d
|----------------|a
|----------------|e

G
|----3-----3-----|
|---3----3-----3-|
|-0----0-----0---|
|----------------|
|----------------|
|----------------|

C
|-----3-----3----|
|---5----5-----5-|
|-5----5-----5---|
|----------------|
|----------------|
|----------------|

E
|-----7-----7----|
|---9----9-----7-|
|-9----9-----9---|
|----------------|
|----------------|
|----------------|

2 раза

Am
|-----8----7-----|
|---5----5-----5-|
|-5----5-----5---|
|----------------|
|----------------|
|----------------|

G
|-5--5---3--3----|
|-5--5---3--3----|
|----------------|
|----------------|
|----------------|
|----------------|

C
|-1--1---0--0----|
|-1--1---1--1----|
|----------------|
|----------------|
|----------------|
|----------------|

E
|-------0--------|
|-----3---3------|
|---1-------1----|
|-2--------------|
|----------------|
|----------------|


2 раза
Вложения
Тип файла: ibf post-6-1155668315.ibf (140.8 Кб, 9 просмотров)
Ответ

Опции темы
Оценка этой теме
Оценка этой теме:

Ваши права в разделе
Вы не можете создавать новые темы
Вы не можете отвечать в темах
Вы не можете прикреплять вложения
Вы не можете редактировать свои сообщения

vB-коди Вкл.
Смайлы Вкл.
[IMG] код Вкл.
HTML код Выкл.

Похожие темы
Тема Автор Раздел Ответов Последнее сообщение
Собираем публикации из СМИ группы Агата Кристи DimedroL ОБЩИЙ ФОРУМ 39 07.12.2020 17:42
Летопись группы АГАТА КРИСТИ Камбоджи АРХИВ ОБЩЕГО ФОРУМА 32 03.11.2020 16:46
Автограф-сессия группы АГАТА КРИСТИ DimedroL ОБЩИЙ ФОРУМ 105 21.03.2009 23:49
Автограф-сессия группы АГАТА КРИСТИ DimedroL ВСТРЕЧИ ФАНАТОВ 0 01.01.1970 03:00


Часовой пояс GMT +4, время: 02:56.

Powered by vBulletin® Version 3.8.9
Copyright ©2000 - 2022, Jelsoft Enterprises Ltd. Перевод: zCarot
Agata.rip 2015-2016